999
DXF file: 41927.dxf
999
Pro/ENGINEER 2014500 by Parametric Technology Corporation
  0
SECTION
  2
HEADER
  9
$EXTMAX
 10
594.0
 20
420.0
 30
0.0
  9
$EXTMIN
 10
0.0
 20
0.0
 30
0.0
  9
$LIMMIN
 10
0.0
 20
0.0
  9
$LIMMAX
 10
594.0
 20
420.0
  9
$VIEWCTR
 10
297.0
 20
210.0
  9
$VIEWSIZE
 40
420.0
  9
$CLAYER
  8
0
  9
$LTSCALE
 40
32.67
  9
$CELTYPE
  6
BYLAYER
  9
$DIMSCALE
 40
1.0
  9
$DIMASZ
 40
2.5
  9
$DIMEXO
 40
0.0625
  9
$DIMDLI
 40
22.572
  9
$DIMEXE
 40
1.0
  9
$DIMCEN
 40
5.346
  9
$DIMLFAC
 40
1.0
  9
$DIMBLK
  1
_FILLED
  9
$DIMALT
 70
0
  9
$DIMALTF
 40
0.0393700787
  9
$DIMTXT
 40
3.5
  9
$AUNITS
 70
0
  9
$PDMODE
 70
3
  9
$PDSIZE
 40
0.3125
  9
$TILEMODE
 70
1
  0
ENDSEC
  0
SECTION
  2
TABLES
  0
TABLE
  2
LTYPE
 70
6
  0
LTYPE
  2
BYBLOCK
 70
0
  3

 72
65
 73
0
 40
0.0
  0
LTYPE
  2
BYLAYER
 70
0
  3

 72
65
 73
0
 40
0.0
  0
LTYPE
  2
CONTINUOUS
 70
64
  3
Solid line
 72
65
 73
0
 40
0.0
  0
LTYPE
  2
CENTER
 70
64
  3
____ _ ____ _ ____ _ ____ _ ____ _ ____ _ ____
 72
65
 73
4
 40
0.6
 49
0.375
 49
-0.075
 49
0.075
 49
-0.075
  0
LTYPE
  2
HIDDEN
 70
64
  3
- - - - - - - - - - - - - - - - - - - -
 72
65
 73
2
 40
0.2
 49
0.1
 49
-0.1
  0
LTYPE
  2
PHANTOM
 70
64
  3
_____ _ _ _____ _ _ _____ _ _ _____
 72
65
 73
6
 40
0.8
 49
0.45
 49
-0.05
 49
0.1
 49
-0.05
 49
0.1
 49
-0.05
  0
LTYPE
  2
DOT
 70
64
  3
. . . . . . . . . . . . . . . . . . . .
 72
65
 73
2
 40
0.2
 49
0.1
 49
-0.1
  0
LTYPE
  2
DASHED
 70
64
  3
- - - - - - - - - - - - - - - - - - - -
 72
65
 73
2
 40
0.2
 49
0.1
 49
-0.1
  0
ENDTAB
  0
TABLE
  2
LAYER
 70
36
  0
LAYER
  2
0
 70
0
 62
7
  6
CONTINUOUS
  0
LAYER
  2
DEFAULT_1
 70
0
 62
7
  6
CENTER
  0
LAYER
  2
DEFAULT_2
 70
0
 62
8
  6
HIDDEN
  0
LAYER
  2
DEFAULT_3
 70
0
 62
7
  6
PHANTOM
  0
LAYER
  2
01___PRT_ALL_DTM_PLN
 70
0
 62
7
  6
CONTINUOUS
  0
LAYER
  2
01___PRT_DEF_DTM_PLN
 70
0
 62
7
  6
CONTINUOUS
  0
LAYER
  2
02___PRT_ALL_AXES
 70
0
 62
7
  6
CONTINUOUS
  0
LAYER
  2
03___PRT_ALL_CURVES
 70
0
 62
7
  6
CONTINUOUS
  0
LAYER
  2
04___PRT_ALL_DTM_PNT
 70
0
 62
7
  6
CONTINUOUS
  0
LAYER
  2
05___PRT_ALL_DTM_CSYS
 70
0
 62
7
  6
CONTINUOUS
  0
LAYER
  2
05___PRT_DEF_DTM_CSYS
 70
0
 62
7
  6
CONTINUOUS
  0
LAYER
  2
06___PRT_ALL_SURFS
 70
0
 62
7
  6
CONTINUOUS
  0
ENDTAB
  0
TABLE
  2
STYLE
 70
1
  0
STYLE
  2
STANDARD
 70
0
 40
0.0
 41
1.0
 50
0.0
 71
0
 42
0.2
  3
arial.ttf
  4

  0
STYLE
  2
TEXTSTYLE_1
 70
0
 40
0.0
 41
0.8
 50
0.0
 71
0
 42
0.2
  3
gdt
  4

  0
ENDTAB
  0
ENDSEC
  0
SECTION
  2
BLOCKS
  0
ENDSEC
  0
SECTION
  2
ENTITIES
  0
TEXT
  8
0
 62
2
  6
CONTINUOUS
 10
183.0614340573
 20
-171.7472208722
  7
STANDARD
 40
3.5
  1
SCALE  
 41
1.0
 72
2
 11
201.771471232
 21
-171.7472208722
  0
TEXT
  8
0
 62
2
  6
CONTINUOUS
 10
201.771471232
 20
-171.7472208722
  7
STANDARD
 40
3.5
  1
1.000
 41
1.0
 72
2
 11
214.0019545034
 21
-171.7472208722
  0
LINE
  8
0
 62
7
  6
CONTINUOUS
 10
341.0019545034
 20
-163.5272208722
 11
87.0019545034
 21
-163.5272208722
  0
LINE
  8
0
 62
7
  6
CONTINUOUS
 10
172.7231013562
 20
561.9716322749
 11
151.6442482091
 21
540.8927791278
  0
LINE
  8
0
 62
7
  6
CONTINUOUS
 10
106.0519545034
 20
74.4727791278
 11
321.9519545034
 21
74.4727791278
  0
LINE
  8
0
 62
7
  6
CONTINUOUS
 10
87.0019545034
 20
-163.5272208722
 11
87.0019545034
 21
585.7727791278
  0
LINE
  8
0
 62
7
  6
CONTINUOUS
 10
101.2842482091
 20
540.8927791278
 11
101.2842482091
 21
406.2727791278
  0
LINE
  8
0
 62
7
  6
CONTINUOUS
 10
106.0519545034
 20
154.4727791278
 11
106.0519545034
 21
74.4727791278
  0
LINE
  8
0
 62
7
  6
CONTINUOUS
 10
268.5313535035
 20
398.4521781278
 11
276.3519545034
 21
406.2727791278
  0
LINE
  8
0
 62
7
  6
CONTINUOUS
 10
321.9519545034
 20
154.4727791278
 11
106.0519545034
 21
154.4727791278
  0
LINE
  8
0
 62
7
  6
CONTINUOUS
 10
321.9519545034
 20
74.4727791278
 11
321.9519545034
 21
154.4727791278
  0
LINE
  8
0
 62
7
  6
CONTINUOUS
 10
151.6442482091
 20
406.2727791278
 11
159.464849209
 21
398.4521781278
  0
LINE
  8
0
 62
7
  6
CONTINUOUS
 10
326.7119545034
 20
406.2727791278
 11
326.7119545034
 21
540.8927791278
  0
LINE
  8
0
 62
7
  6
CONTINUOUS
 10
341.0019545034
 20
585.7727791278
 11
341.0019545034
 21
-163.5272208722
  0
LINE
  8
0
 62
7
  6
CONTINUOUS
 10
159.464849209
 20
398.4521781278
 11
268.5313535035
 21
398.4521781278
  0
LINE
  8
0
 62
7
  6
CONTINUOUS
 10
101.2842482091
 20
406.2727791278
 11
151.6442482091
 21
406.2727791278
  0
LINE
  8
0
 62
7
  6
CONTINUOUS
 10
276.3519545034
 20
406.2727791278
 11
326.7119545034
 21
406.2727791278
  0
LINE
  8
0
 62
7
  6
CONTINUOUS
 10
276.3519545034
 20
540.8927791278
 11
255.2731013562
 21
561.9716322749
  0
LINE
  8
0
 62
7
  6
CONTINUOUS
 10
326.7119545034
 20
540.8927791278
 11
276.3519545034
 21
540.8927791278
  0
LINE
  8
0
 62
7
  6
CONTINUOUS
 10
151.6442482091
 20
540.8927791278
 11
101.2842482091
 21
540.8927791278
  0
LINE
  8
0
 62
7
  6
CONTINUOUS
 10
255.2731013562
 20
561.9716322749
 11
172.7231013562
 21
561.9716322749
  0
LINE
  8
0
 62
7
  6
CONTINUOUS
 10
87.0019545034
 20
585.7727791278
 11
341.0019545034
 21
585.7727791278
  0
CIRCLE
  8
02___PRT_ALL_AXES
 62
7
  6
CONTINUOUS
 10
290.2019545034
 20
398.4527791278
 40
3.5
  0
CIRCLE
  8
02___PRT_ALL_AXES
 62
7
  6
CONTINUOUS
 10
290.2019545034
 20
39.6727791278
 40
3.5
  0
CIRCLE
  8
02___PRT_ALL_AXES
 62
7
  6
CONTINUOUS
 10
137.8019545034
 20
398.4527791278
 40
3.5
  0
CIRCLE
  8
02___PRT_ALL_AXES
 62
7
  6
CONTINUOUS
 10
137.8019545034
 20
39.6727791278
 40
3.5
  0
CIRCLE
  8
02___PRT_ALL_AXES
 62
7
  6
CONTINUOUS
 10
290.2019545034
 20
550.8527791278
 40
3.5
  0
CIRCLE
  8
02___PRT_ALL_AXES
 62
7
  6
CONTINUOUS
 10
137.8019545034
 20
550.8527791278
 40
3.5
  0
ENDSEC
  0
EOF
